  0
SECTION
  2
HEADER
  9
$ACADVER
  1
AC1015
  9
$ACADMAINTVER
 70
     6
  9
$DWGCODEPAGE
  3
ANSI_1254
  9
$INSBASE
 10
0.0
 20
0.0
 30
0.0
  9
$EXTMIN
 10
0.0
 20
0.0
 30
0.0
  9
$EXTMAX
 10
279.4
 20
215.9
 30
0.0
  9
$LIMMIN
 10
0.0
 20
0.0
  9
$LIMMAX
 10
279.4
 20
215.9
  9
$ORTHOMODE
 70
     0
  9
$REGENMODE
 70
     1
  9
$FILLMODE
 70
     1
  9
$QTEXTMODE
 70
     0
  9
$MIRRTEXT
 70
     1
  9
$LTSCALE
 40
1.0
  9
$ATTMODE
 70
     1
  9
$TEXTSIZE
 40
3.5
  9
$TRACEWID
 40
1.0
  9
$TEXTSTYLE
  7
Standard
  9
$CLAYER
  8
0
  9
$CELTYPE
  6
ByLayer
  9
$CECOLOR
 62
   256
  9
$CELTSCALE
 40
1.0
  9
$DISPSILH
 70
     0
  9
$DIMSCALE
 40
1.0
  9
$DIMASZ
 40
3.5
  9
$DIMEXO
 40
1.0
  9
$DIMDLI
 40
3.75
  9
$DIMRND
 40
0.0
  9
$DIMDLE
 40
0.0
  9
$DIMEXE
 40
1.0
  9
$DIMTP
 40
0.0
  9
$DIMTM
 40
0.0
  9
$DIMTXT
 40
3.5
  9
$DIMCEN
 40
2.5
  9
$DIMTSZ
 40
0.0
  9
$DIMTOL
 70
     0
  9
$DIMLIM
 70
     0
  9
$DIMTIH
 70
     1
  9
$DIMTOH
 70
     1
  9
$DIMSE1
 70
     0
  9
$DIMSE2
 70
     0
  9
$DIMTAD
 70
     1
  9
$DIMZIN
 70
     0
  9
$DIMBLK
  1

  9
$DIMASO
 70
     1
  9
$DIMSHO
 70
     1
  9
$DIMPOST
  1

  9
$DIMAPOST
  1

  9
$DIMALT
 70
     0
  9
$DIMALTD
 70
     3
  9
$DIMALTF
 40
0.0393700787
  9
$DIMLFAC
 40
1.0
  9
$DIMTOFL
 70
     1
  9
$DIMTVP
 40
0.0
  9
$DIMTIX
 70
     0
  9
$DIMSOXD
 70
     0
  9
$DIMSAH
 70
     0
  9
$DIMBLK1
  1

  9
$DIMBLK2
  1

  9
$DIMSTYLE
  2
ISO-25
  9
$DIMCLRD
 70
     0
  9
$DIMCLRE
 70
     0
  9
$DIMCLRT
 70
     0
  9
$DIMTFAC
 40
1.0
  9
$DIMGAP
 40
1.524
  9
$DIMJUST
 70
     0
  9
$DIMSD1
 70
     0
  9
$DIMSD2
 70
     0
  9
$DIMTOLJ
 70
     0
  9
$DIMTZIN
 70
     0
  9
$DIMALTZ
 70
     0
  9
$DIMALTTZ
 70
     0
  9
$DIMUPT
 70
     0
  9
$DIMDEC
 70
     2
  9
$DIMTDEC
 70
     2
  9
$DIMALTU
 70
     2
  9
$DIMALTTD
 70
     3
  9
$DIMTXSTY
  7
Standard
  9
$DIMAUNIT
 70
     0
  9
$DIMADEC
 70
     2
  9
$DIMALTRND
 40
0.0
  9
$DIMAZIN
 70
     0
  9
$DIMDSEP
 70
    44
  9
$DIMATFIT
 70
     3
  9
$DIMFRAC
 70
     0
  9
$DIMLDRBLK
  1

  9
$DIMLUNIT
 70
     2
  9
$DIMLWD
 70
    -2
  9
$DIMLWE
 70
    -2
  9
$DIMTMOVE
 70
     0
  9
$LUNITS
 70
     2
  9
$LUPREC
 70
     2
  9
$SKETCHINC
 40
1.0
  9
$FILLETRAD
 40
10.0
  9
$AUNITS
 70
     0
  9
$AUPREC
 70
     2
  9
$MENU
  1
.
  9
$ELEVATION
 40
0.0
  9
$PELEVATION
 40
0.0
  9
$THICKNESS
 40
0.0
  9
$LIMCHECK
 70
     0
  9
$CHAMFERA
 40
0.0
  9
$CHAMFERB
 40
0.0
  9
$CHAMFERC
 40
0.0
  9
$CHAMFERD
 40
0.0
  9
$SKPOLY
 70
     0
  9
$TDCREATE
 40
2458985.682820995
  9
$TDUCREATE
 40
2458985.557820995
  9
$TDUPDATE
 40
2458985.682821389
  9
$TDUUPDATE
 40
2458985.557821389
  9
$TDINDWG
 40
0.0000000116
  9
$TDUSRTIMER
 40
0.0000000116
  9
$USRTIMER
 70
     1
  9
$ANGBASE
 50
0.0
  9
$ANGDIR
 70
     0
  9
$PDMODE
 70
     0
  9
$PDSIZE
 40
-1.0
  9
$PLINEWID
 40
0.0
  9
$SPLFRAME
 70
     0
  9
$SPLINETYPE
 70
     6
  9
$SPLINESEGS
 70
     8
  9
$HANDSEED
  5
CB
  9
$SURFTAB1
 70
     6
  9
$SURFTAB2
 70
     6
  9
$SURFTYPE
 70
     6
  9
$SURFU
 70
     6
  9
$SURFV
 70
     6
  9
$UCSBASE
  2

  9
$UCSNAME
  2

  9
$UCSORG
 10
0.0
 20
0.0
 30
0.0
  9
$UCSXDIR
 10
1.0
 20
0.0
 30
0.0
  9
$UCSYDIR
 10
0.0
 20
1.0
 30
0.0
  9
$UCSORTHOREF
  2

  9
$UCSORTHOVIEW
 70
     0
  9
$UCSORGTOP
 10
0.0
 20
0.0
 30
0.0
  9
$UCSORGBOTTOM
 10
0.0
 20
0.0
 30
0.0
  9
$UCSORGLEFT
 10
0.0
 20
0.0
 30
0.0
  9
$UCSORGRIGHT
 10
0.0
 20
0.0
 30
0.0
  9
$UCSORGFRONT
 10
0.0
 20
0.0
 30
0.0
  9
$UCSORGBACK
 10
0.0
 20
0.0
 30
0.0
  9
$PUCSBASE
  2

  9
$PUCSNAME
  2

  9
$PUCSORG
 10
0.0
 20
0.0
 30
0.0
  9
$PUCSXDIR
 10
1.0
 20
0.0
 30
0.0
  9
$PUCSYDIR
 10
0.0
 20
1.0
 30
0.0
  9
$PUCSORTHOREF
  2

  9
$PUCSORTHOVIEW
 70
     0
  9
$PUCSORGTOP
 10
0.0
 20
0.0
 30
0.0
  9
$PUCSORGBOTTOM
 10
0.0
 20
0.0
 30
0.0
  9
$PUCSORGLEFT
 10
0.0
 20
0.0
 30
0.0
  9
$PUCSORGRIGHT
 10
0.0
 20
0.0
 30
0.0
  9
$PUCSORGFRONT
 10
0.0
 20
0.0
 30
0.0
  9
$PUCSORGBACK
 10
0.0
 20
0.0
 30
0.0
  9
$USERI1
 70
     0
  9
$USERI2
 70
     0
  9
$USERI3
 70
     0
  9
$USERI4
 70
     0
  9
$USERI5
 70
     0
  9
$USERR1
 40
0.0
  9
$USERR2
 40
0.0
  9
$USERR3
 40
0.0
  9
$USERR4
 40
0.0
  9
$USERR5
 40
0.0
  9
$WORLDVIEW
 70
     1
  9
$SHADEDGE
 70
     3
  9
$SHADEDIF
 70
    70
  9
$TILEMODE
 70
     1
  9
$MAXACTVP
 70
    64
  9
$PINSBASE
 10
0.0
 20
0.0
 30
0.0
  9
$PLIMCHECK
 70
     0
  9
$PEXTMIN
 10
1.0000000000E+20
 20
1.0000000000E+20
 30
1.0000000000E+20
  9
$PEXTMAX
 10
-1.0000000000E+20
 20
-1.0000000000E+20
 30
-1.0000000000E+20
  9
$PLIMMIN
 10
0.0
 20
0.0
  9
$PLIMMAX
 10
420.0
 20
297.0
  9
$UNITMODE
 70
     0
  9
$VISRETAIN
 70
     1
  9
$PLINEGEN
 70
     0
  9
$PSLTSCALE
 70
     1
  9
$TREEDEPTH
 70
  3020
  9
$CMLSTYLE
  2
Standard
  9
$CMLJUST
 70
     0
  9
$CMLSCALE
 40
20.0
  9
$PROXYGRAPHICS
 70
     1
  9
$MEASUREMENT
 70
     1
  9
$CELWEIGHT
370
    -1
  9
$ENDCAPS
280
     0
  9
$JOINSTYLE
280
     0
  9
$LWDISPLAY
290
     1
  9
$INSUNITS
 70
     4
  9
$HYPERLINKBASE
  1

  9
$STYLESHEET
  1

  9
$XEDIT
290
     1
  9
$CEPSNTYPE
380
     0
  9
$PSTYLEMODE
290
     1
  9
$FINGERPRINTGUID
  2
{09b8b24c-8449-4ba2-b3b1-b17e4fb5ef4c}
  9
$VERSIONGUID
  2
{FAEB1C32-E019-11D5-929B-00C0DF256EC4}
  9
$EXTNAMES
290
     1
  9
$PSVPSCALE
 40
0.0
  9
$OLESTARTUP
290
     0
  0
ENDSEC
  0
SECTION
  2
CLASSES
  0
CLASS
  1
ACDBDICTIONARYWDFLT
  2
AcDbDictionaryWithDefault
  3
ObjectDBX Classes
 90
        0
280
     0
281
     0
  0
CLASS
  1
VISUALSTYLE
  2
AcDbVisualStyle
  3
ObjectDBX Classes
 90
     4095
280
     0
281
     0
  0
CLASS
  1
MATERIAL
  2
AcDbMaterial
  3
ObjectDBX Classes
 90
     1153
280
     0
281
     0
  0
CLASS
  1
SCALE
  2
AcDbScale
  3
ObjectDBX Classes
 90
     1153
280
     0
281
     0
  0
CLASS
  1
TABLESTYLE
  2
AcDbTableStyle
  3
ObjectDBX Classes
 90
     4095
280
     0
281
     0
  0
CLASS
  1
MLEADERSTYLE
  2
AcDbMLeaderStyle
  3
ACDB_MLEADERSTYLE_CLASS
 90
     4095
280
     0
281
     0
  0
CLASS
  1
SUN
  2
AcDbSun
  3
SCENEOE
 90
     1153
280
     0
281
     0
  0
CLASS
  1
ACDBPLACEHOLDER
  2
AcDbPlaceHolder
  3
ObjectDBX Classes
 90
        0
280
     0
281
     0
  0
CLASS
  1
LAYOUT
  2
AcDbLayout
  3
ObjectDBX Classes
 90
        0
280
     0
281
     0
  0
ENDSEC
  0
SECTION
  2
TABLES
  0
TABLE
  2
VPORT
  5
8
330
0
100
AcDbSymbolTable
 70
     1
  0
VPORT
  5
29
330
8
100
AcDbSymbolTableRecord
100
AcDbViewportTableRecord
  2
*Active
 70
     0
 10
0.0
 20
0.0
 11
1.0
 21
1.0
 12
139.7
 22
107.95
 13
0.0
 23
0.0
 14
10.0
 24
10.0
 15
10.0
 25
10.0
 16
0.0
 26
0.0
 36
1.0
 17
0.0
 27
0.0
 37
0.0
 40
215.9
 41
1.2941176471
 42
50.0
 43
0.0
 44
0.0
 50
0.0
 51
0.0
 71
     0
 72
  2000
 73
     1
 74
     3
 75
     0
 76
     0
 77
     0
 78
     0
281
     0
 65
     1
110
0.0
120
0.0
130
0.0
111
1.0
121
0.0
131
0.0
112
0.0
122
1.0
132
0.0
 79
     0
146
0.0
  0
ENDTAB
  0
TABLE
  2
LTYPE
  5
5
330
0
100
AcDbSymbolTable
 70
     6
  0
LTYPE
  5
14
330
5
100
AcDbSymbolTableRecord
100
AcDbLinetypeTableRecord
  2
ByBlock
 70
     0
  3

 72
    65
 73
     0
 40
0.0
  0
LTYPE
  5
15
330
5
100
AcDbSymbolTableRecord
100
AcDbLinetypeTableRecord
  2
ByLayer
 70
     0
  3

 72
    65
 73
     0
 40
0.0
  0
LTYPE
  5
16
330
5
100
AcDbSymbolTableRecord
100
AcDbLinetypeTableRecord
  2
Continuous
 70
     0
  3
Solid line
 72
    65
 73
     0
 40
0.0
  0
LTYPE
  5
6E
330
5
100
AcDbSymbolTableRecord
100
AcDbLinetypeTableRecord
  2
HIDDEN
 70
     0
  3
Hidden __ __ __ __ __ __ __ __ __ __ __ __ __ __
 72
    65
 73
     2
 40
1.905
 49
1.27
 74
     0
 49
-0.635
 74
     0
  0
LTYPE
  5
6F
330
5
100
AcDbSymbolTableRecord
100
AcDbLinetypeTableRecord
  2
PHANTOM
 70
     0
  3
Phantom ______  __  __  ______  __  __  ______
 72
    65
 73
     6
 40
12.7
 49
6.35
 74
     0
 49
-1.27
 74
     0
 49
1.27
 74
     0
 49
-1.27
 74
     0
 49
1.27
 74
     0
 49
-1.27
 74
     0
  0
LTYPE
  5
70
330
5
100
AcDbSymbolTableRecord
100
AcDbLinetypeTableRecord
  2
CENTER
 70
     0
  3
Center ____ _ ____ _ ____ _ ____ _ ____ _ ____
 72
    65
 73
     4
 40
10.16
 49
6.35
 74
     0
 49
-1.27
 74
     0
 49
1.27
 74
     0
 49
-1.27
 74
     0
  0
LTYPE
  5
71
330
5
100
AcDbSymbolTableRecord
100
AcDbLinetypeTableRecord
  2
CENTERX2
 70
     0
  3
Center (2x) ________  __  ________  __  _____
 72
    65
 73
     4
 40
20.32
 49
12.7
 74
     0
 49
-2.54
 74
     0
 49
2.54
 74
     0
 49
-2.54
 74
     0
  0
LTYPE
  5
72
330
5
100
AcDbSymbolTableRecord
100
AcDbLinetypeTableRecord
  2
DOT2
 70
     0
  3
Dot (.5x) ........................................
 72
    65
 73
     2
 40
0.635
 49
0.0
 74
     0
 49
-0.635
 74
     0
  0
ENDTAB
  0
TABLE
  2
LAYER
  5
2
330
0
100
AcDbSymbolTable
 70
    17
  0
LAYER
  5
10
330
2
100
AcDbSymbolTableRecord
100
AcDbLayerTableRecord
  2
0
 70
     0
 62
     7
  6
Continuous
370
    -3
390
F
  0
LAYER
  5
73
330
2
100
AcDbSymbolTableRecord
100
AcDbLayerTableRecord
  2
FORMAT
 70
     0
 62
     7
  6
Continuous
370
    -3
390
F
  0
LAYER
  5
74
330
2
100
AcDbSymbolTableRecord
100
AcDbLayerTableRecord
  2
YARDIMCI_GEOMETRI
 70
     0
 62
    -6
  6
Continuous
290
     0
370
    -3
390
F
  0
LAYER
  5
75
330
2
100
AcDbSymbolTableRecord
100
AcDbLayerTableRecord
  2
SAYFA_CERCEVESI
 70
     0
 62
     7
  6
Continuous
370
    25
390
F
  0
LAYER
  5
76
330
2
100
AcDbSymbolTableRecord
100
AcDbLayerTableRecord
  2
ANTET
 70
     0
 62
     7
  6
Continuous
370
    -3
390
F
  0
LAYER
  5
77
330
2
100
AcDbSymbolTableRecord
100
AcDbLayerTableRecord
  2
OLCU
 70
     0
 62
   150
  6
Continuous
370
    -3
390
F
  0
LAYER
  5
78
330
2
100
AcDbSymbolTableRecord
100
AcDbLayerTableRecord
  2
METIN
 70
     0
 62
    96
  6
Continuous
370
    -3
390
F
  0
LAYER
  5
79
330
2
100
AcDbSymbolTableRecord
100
AcDbLayerTableRecord
  2
BALON
 70
     0
 62
     5
  6
Continuous
370
    -3
390
F
  0
LAYER
  5
7A
330
2
100
AcDbSymbolTableRecord
100
AcDbLayerTableRecord
  2
VURGU
 70
     0
 62
     7
  6
Continuous
370
    -3
390
F
  0
LAYER
  5
7B
330
2
100
AcDbSymbolTableRecord
100
AcDbLayerTableRecord
  2
SILIK
 70
     0
 62
     7
  6
Continuous
370
    -3
390
F
  0
LAYER
  5
7C
330
2
100
AcDbSymbolTableRecord
100
AcDbLayerTableRecord
  2
MODEL
 70
     0
 62
     7
  6
Continuous
370
    -3
390
F
  0
LAYER
  5
7D
330
2
100
AcDbSymbolTableRecord
100
AcDbLayerTableRecord
  2
DETAYLANDıRMA
 70
     0
 62
   190
  6
Continuous
370
    -3
390
F
  0
LAYER
  5
7E
330
2
100
AcDbSymbolTableRecord
100
AcDbLayerTableRecord
  2
TOLERANS
 70
     0
 62
   230
  6
Continuous
370
    -3
390
F
  0
LAYER
  5
7F
330
2
100
AcDbSymbolTableRecord
100
AcDbLayerTableRecord
  2
MERKEZ_CIZGILERI
 70
     0
 62
    30
  6
Continuous
370
    -3
390
F
  0
LAYER
  5
80
330
2
100
AcDbSymbolTableRecord
100
AcDbLayerTableRecord
  2
KESIT-DETAY_CIZGILERI
 70
     0
 62
     7
  6
Continuous
370
    -3
390
F
  0
LAYER
  5
81
330
2
100
AcDbSymbolTableRecord
100
AcDbLayerTableRecord
  2
\U+041E\U+0421\U+0415\U+0412\U+042B\U+0415
 70
     0
 62
     7
  6
Continuous
370
    -3
390
F
  0
LAYER
  5
82
330
2
100
AcDbSymbolTableRecord
100
AcDbLayerTableRecord
  2
\U+0412\U+041E\U+0414\U+042F\U+041D\U+042B\U+0415_\U+0417\U+041D\U+0410\U+041A\U+0418
 70
     0
 62
    11
  6
Continuous
370
    -3
390
F
  0
ENDTAB
  0
TABLE
  2
STYLE
  5
3
330
0
100
AcDbSymbolTable
 70
     1
  0
STYLE
  5
11
330
3
100
AcDbSymbolTableRecord
100
AcDbTextStyleTableRecord
  2
Standard
 70
     0
 40
0.0
 41
1.0
 50
0.0
 71
     0
 42
3.5
  3
txt
  4

  0
ENDTAB
  0
TABLE
  2
VIEW
  5
6
330
0
100
AcDbSymbolTable
 70
     0
  0
ENDTAB
  0
TABLE
  2
UCS
  5
7
330
0
100
AcDbSymbolTable
 70
     0
  0
ENDTAB
  0
TABLE
  2
APPID
  5
9
330
0
100
AcDbSymbolTable
 70
     1
  0
APPID
  5
12
330
9
100
AcDbSymbolTableRecord
100
AcDbRegAppTableRecord
  2
ACAD
 70
     0
  0
ENDTAB
  0
TABLE
  2
DIMSTYLE
  5
A
330
0
100
AcDbSymbolTable
 70
     1
100
AcDbDimStyleTable
  0
DIMSTYLE
105
27
330
A
100
AcDbSymbolTableRecord
100
AcDbDimStyleTableRecord
  2
ISO-25
 70
     0
 41
2.5
 42
0.625
 43
3.75
 44
1.25
 73
     0
 74
     0
 77
     1
 78
     8
140
2.5
141
2.5
143
0.0393700787
147
0.625
171
     3
172
     1
178
     0
271
     2
272
     2
274
     3
278
    44
283
     0
284
     8
340
11
  0
ENDTAB
  0
TABLE
  2
BLOCK_RECORD
  5
1
330
0
100
AcDbSymbolTable
 70
     3
  0
BLOCK_RECORD
  5
1F
330
1
100
AcDbSymbolTableRecord
100
AcDbBlockTableRecord
  2
*Model_Space
340
22
  0
BLOCK_RECORD
  5
1B
330
1
100
AcDbSymbolTableRecord
100
AcDbBlockTableRecord
  2
*Paper_Space
340
1E
  0
BLOCK_RECORD
  5
23
330
1
100
AcDbSymbolTableRecord
100
AcDbBlockTableRecord
  2
*Paper_Space0
340
26
  0
BLOCK_RECORD
  5
88
330
1
100
AcDbSymbolTableRecord
100
AcDbBlockTableRecord
  2
SW_CENTERMARKSYMBOL_0
340
0
102
{BLKREFS
331
93
102
}
  0
BLOCK_RECORD
  5
B2
330
1
100
AcDbSymbolTableRecord
100
AcDbBlockTableRecord
  2
SW_CENTERMARKSYMBOL_1
340
0
102
{BLKREFS
331
BD
102
}
  0
ENDTAB
  0
ENDSEC
  0
SECTION
  2
BLOCKS
  0
BLOCK
  5
20
330
1F
100
AcDbEntity
  8
0
100
AcDbBlockBegin
  2
*Model_Space
 70
     0
 10
0.0
 20
0.0
 30
0.0
  3
*Model_Space
  1

  0
ENDBLK
  5
21
330
1F
100
AcDbEntity
  8
0
100
AcDbBlockEnd
  0
BLOCK
  5
1C
330
1B
100
AcDbEntity
 67
     1
  8
0
100
AcDbBlockBegin
  2
*Paper_Space
 70
     0
 10
0.0
 20
0.0
 30
0.0
  3
*Paper_Space
  1

  0
ENDBLK
  5
1D
330
1B
100
AcDbEntity
 67
     1
  8
0
100
AcDbBlockEnd
  0
BLOCK
  5
24
330
23
100
AcDbEntity
  8
0
100
AcDbBlockBegin
  2
*Paper_Space0
 70
     0
 10
0.0
 20
0.0
 30
0.0
  3
*Paper_Space0
  1

  0
ENDBLK
  5
25
330
23
100
AcDbEntity
  8
0
100
AcDbBlockEnd
  0
BLOCK
  5
89
330
88
100
AcDbEntity
  8
0
100
AcDbBlockBegin
  2
SW_CENTERMARKSYMBOL_0
 70
     0
 10
0.0
 20
0.0
 30
0.0
  3
SW_CENTERMARKSYMBOL_0
  1

  0
LINE
  5
8B
330
88
100
AcDbEntity
  8
FORMAT
 62
     0
100
AcDbLine
 10
0.0
 20
0.0
 30
0.0
 11
0.0
 21
2.5
 31
0.0
  0
LINE
  5
8C
330
88
100
AcDbEntity
  8
FORMAT
 62
     0
100
AcDbLine
 10
0.0
 20
0.0
 30
0.0
 11
-2.5
 21
0.0
 31
0.0
  0
LINE
  5
8D
330
88
100
AcDbEntity
  8
FORMAT
 62
     0
100
AcDbLine
 10
0.0
 20
0.0
 30
0.0
 11
0.0
 21
-2.5
 31
0.0
  0
LINE
  5
8E
330
88
100
AcDbEntity
  8
FORMAT
 62
     0
100
AcDbLine
 10
0.0
 20
0.0
 30
0.0
 11
2.5
 21
0.0
 31
0.0
  0
LINE
  5
8F
330
88
100
AcDbEntity
  8
FORMAT
 62
     0
100
AcDbLine
 10
0.0
 20
5.0
 30
0.0
 11
0.0
 21
92.5
 31
0.0
  0
LINE
  5
90
330
88
100
AcDbEntity
  8
FORMAT
 62
     0
100
AcDbLine
 10
-5.0
 20
0.0
 30
0.0
 11
-92.5
 21
0.0
 31
0.0
  0
LINE
  5
91
330
88
100
AcDbEntity
  8
FORMAT
 62
     0
100
AcDbLine
 10
0.0
 20
-5.0
 30
0.0
 11
0.0
 21
-92.5
 31
0.0
  0
LINE
  5
92
330
88
100
AcDbEntity
  8
FORMAT
 62
     0
100
AcDbLine
 10
5.0
 20
0.0
 30
0.0
 11
92.5
 21
0.0
 31
0.0
  0
ENDBLK
  5
8A
330
88
100
AcDbEntity
  8
0
100
AcDbBlockEnd
  0
BLOCK
  5
B3
330
B2
100
AcDbEntity
  8
0
100
AcDbBlockBegin
  2
SW_CENTERMARKSYMBOL_1
 70
     0
 10
0.0
 20
0.0
 30
0.0
  3
SW_CENTERMARKSYMBOL_1
  1

  0
LINE
  5
B5
330
B2
100
AcDbEntity
  8
FORMAT
 62
     0
100
AcDbLine
 10
0.0
 20
0.0
 30
0.0
 11
0.0
 21
2.5
 31
0.0
  0
LINE
  5
B6
330
B2
100
AcDbEntity
  8
FORMAT
 62
     0
100
AcDbLine
 10
0.0
 20
0.0
 30
0.0
 11
-2.5
 21
0.0
 31
0.0
  0
LINE
  5
B7
330
B2
100
AcDbEntity
  8
FORMAT
 62
     0
100
AcDbLine
 10
0.0
 20
0.0
 30
0.0
 11
0.0
 21
-2.5
 31
0.0
  0
LINE
  5
B8
330
B2
100
AcDbEntity
  8
FORMAT
 62
     0
100
AcDbLine
 10
0.0
 20
0.0
 30
0.0
 11
2.5
 21
0.0
 31
0.0
  0
LINE
  5
B9
330
B2
100
AcDbEntity
  8
FORMAT
 62
     0
100
AcDbLine
 10
0.0
 20
5.0
 30
0.0
 11
0.0
 21
65.0
 31
0.0
  0
LINE
  5
BA
330
B2
100
AcDbEntity
  8
FORMAT
 62
     0
100
AcDbLine
 10
-5.0
 20
0.0
 30
0.0
 11
-65.0
 21
0.0
 31
0.0
  0
LINE
  5
BB
330
B2
100
AcDbEntity
  8
FORMAT
 62
     0
100
AcDbLine
 10
0.0
 20
-5.0
 30
0.0
 11
0.0
 21
-65.0
 31
0.0
  0
LINE
  5
BC
330
B2
100
AcDbEntity
  8
FORMAT
 62
     0
100
AcDbLine
 10
5.0
 20
0.0
 30
0.0
 11
65.0
 21
0.0
 31
0.0
  0
ENDBLK
  5
B4
330
B2
100
AcDbEntity
  8
0
100
AcDbBlockEnd
  0
ENDSEC
  0
SECTION
  2
ENTITIES
  0
LINE
  5
83
330
1F
100
AcDbEntity
  8
0
  6
Continuous
 62
     7
370
    25
100
AcDbLine
 10
133.6819040003
 20
44.4684113959
 30
0.0
 11
283.8798097715
 21
44.4684113959
 31
0.0
  0
LINE
  5
84
330
1F
100
AcDbEntity
  8
0
  6
Continuous
 62
     7
370
    25
100
AcDbLine
 10
283.8798097715
 20
169.4684113959
 30
0.0
 11
133.6722237553
 21
169.4684113959
 31
0.0
  0
CIRCLE
  5
85
330
1F
100
AcDbEntity
  8
0
  6
Continuous
 62
     7
370
    25
100
AcDbCircle
 10
68.8798097715
 20
106.9684113959
 30
0.0
 40
73.60000000000001
  0
CIRCLE
  5
86
330
1F
100
AcDbEntity
  8
0
  6
Continuous
 62
     7
370
    25
100
AcDbCircle
 10
68.8798097715
 20
106.9684113959
 30
0.0
 40
89.99999999999999
  0
LINE
  5
87
330
1F
100
AcDbEntity
  8
0
  6
Continuous
 62
     7
370
    25
100
AcDbLine
 10
283.8798097715
 20
169.4684113959
 30
0.0
 11
283.8798097715
 21
44.4684113959
 31
0.0
  0
INSERT
  5
93
330
1F
100
AcDbEntity
  8
FORMAT
100
AcDbBlockReference
  2
SW_CENTERMARKSYMBOL_0
 10
68.8798097715
 20
106.9684113959
 30
0.0
  0
LINE
  5
94
330
1F
100
AcDbEntity
  8
0
  6
Continuous
 62
     7
370
    25
100
AcDbLine
 10
-21.1201902285
 20
-37.4541721667
 30
0.0
 11
-21.1201902285
 21
-495.4541721667
 31
0.0
  0
LINE
  5
95
330
1F
100
AcDbEntity
  8
0
  6
Continuous
 62
     7
370
    25
100
AcDbLine
 10
158.8798097715
 20
-203.9676094774
 30
0.0
 11
158.8798097715
 21
-37.4541721667
 31
0.0
  0
LINE
  5
96
330
1F
100
AcDbEntity
  8
0
  6
Continuous
 62
     7
370
    25
100
AcDbLine
 10
158.8798097715
 20
-495.4541721667
 30
0.0
 11
158.8798097715
 21
-328.9541721667
 31
0.0
  0
LINE
  5
97
330
1F
100
AcDbEntity
  8
0
  6
Continuous
 62
     7
370
    25
100
AcDbLine
 10
158.8798097715
 20
-328.9541721667
 30
0.0
 11
283.8798097715
 21
-328.9541721667
 31
0.0
  0
LINE
  5
98
330
1F
100
AcDbEntity
  8
0
  6
Continuous
 62
     7
370
    25
100
AcDbLine
 10
283.8798097715
 20
-203.9541721667
 30
0.0
 11
158.8704807062
 21
-203.9541721667
 31
0.0
  0
SPLINE
  5
99
330
1F
100
AcDbEntity
  8
0
  6
Continuous
 62
     7
370
    25
100
AcDbSpline
210
0.0
220
0.0
230
1.0
 70
     8
 71
     3
 72
    46
 73
    42
 74
     0
 42
0.000000001
 43
0.00000001
 40
0.0
 40
0.0
 40
0.0
 40
0.0
 40
0.0019745718594352
 40
0.025070809730045
 40
0.0481677991078174
 40
0.0692194696158524
 40
0.0902723531151104
 40
0.1118575665273525
 40
0.1334443921249368
 40
0.156098802100198
 40
0.1787549909002517
 40
0.2250038546680423
 40
0.2515095871238216
 40
0.2780162029200088
 40
0.305141951123688
 40
0.3322662426047895
 40
0.3558405827846606
 40
0.3794121917012555
 40
0.4035876123128427
 40
0.4277578245914978
 40
0.465740816002291
 40
0.485283510381048
 40
0.5048253674839909
 40
0.5428304795454433
 40
0.5819182282246252
 40
0.6065675278531487
 40
0.6312220286949408
 40
0.6565700410739452
 40
0.681921007106289
 40
0.7072444600181845
 40
0.7325685269472321
 40
0.7584296327238014
 40
0.7842896383756885
 40
0.8136103559730995
 40
0.8429269829297471
 40
0.8733608240701538
 40
0.9037883716099646
 40
0.9274286894321853
 40
0.9510670276598612
 40
0.975533975427895
 40
1.0
 40
1.0
 40
1.0
 40
1.0
 10
158.8704763191545
 20
-203.9676094774165
 30
0.0
 10
158.8735326720201
 20
-203.9632096919762
 30
0.0
 10
158.9123386748481
 20
-203.9073463497027
 30
0.0
 10
158.7586038883879
 20
-204.1283796613504
 30
0.0
 10
158.4023514115179
 20
-204.6431412646641
 30
0.0
 10
157.8206030232694
 20
-205.4878481042109
 30
0.0
 10
157.0748666198056
 20
-206.5803125708702
 30
0.0
 10
156.1455028814836
 20
-207.9564066597483
 30
0.0
 10
155.0310864463541
 20
-209.6307508146305
 30
0.0
 10
153.7472072644657
 20
-211.5942318381684
 30
0.0
 10
151.812233403648
 20
-214.6214982058446
 30
0.0
 10
149.5586324737905
 20
-218.2880508817108
 30
0.0
 10
147.0778673333754
 20
-222.5890098261424
 30
0.0
 10
145.0350482230548
 20
-226.3357764366315
 30
0.0
 10
142.9793064065736
 20
-230.3775777484265
 30
0.0
 10
141.0508092103937
 20
-234.5232817882207
 30
0.0
 10
139.3043574407697
 20
-238.695860081843
 30
0.0
 10
137.7532651337386
 20
-242.8901399875213
 30
0.0
 10
136.3651004167744
 20
-247.3035035192434
 30
0.0
 10
134.9735471927179
 20
-252.802550113611
 30
0.0
 10
134.0696809799813
 20
-258.2297338588104
 30
0.0
 10
133.6691729843605
 20
-263.4452367721404
 30
0.0
 10
133.5846171595504
 20
-268.6931659146002
 30
0.0
 10
134.0836189977129
 20
-275.261076760612
 30
0.0
 10
135.3779504064905
 20
-281.9490252067179
 30
0.0
 10
136.9266847895991
 20
-287.4974389612316
 30
0.0
 10
138.453875169097
 20
-291.9972276619303
 30
0.0
 10
140.164299590353
 20
-296.3330086956055
 30
0.0
 10
142.0088042634212
 20
-300.4886532594654
 30
0.0
 10
143.9221837613783
 20
-304.4179054934031
 30
0.0
 10
145.8759711862286
 20
-308.1400776211748
 30
0.0
 10
147.8294614050899
 20
-311.6416972394824
 30
0.0
 10
149.8299030976175
 20
-315.0497282354791
 30
0.0
 10
151.8095261127204
 20
-318.2775921732336
 30
0.0
 10
153.7263939418582
 20
-321.2875712790308
 30
0.0
 10
155.433514825606
 20
-323.8902829603998
 30
0.0
 10
156.7634142009472
 20
-325.8700180249919
 30
0.0
 10
157.7237886082179
 20
-327.2797150619386
 30
0.0
 10
158.3763467786864
 20
-328.2277102033556
 30
0.0
 10
158.7987380004265
 20
-328.837793905435
 30
0.0
 10
158.8527861876863
 20
-328.9153799008495
 30
0.0
 10
158.879809771465
 20
-328.954172166667
 30
0.0
  0
LINE
  5
9A
330
1F
100
AcDbEntity
  8
0
  6
Continuous
 62
     7
370
    25
100
AcDbLine
 10
158.8798097715
 20
-495.4541721667
 30
0.0
 11
-21.1201902285
 21
-495.4541721667
 31
0.0
  0
LINE
  5
9B
330
1F
100
AcDbEntity
  8
0
  6
Continuous
 62
     7
370
    25
100
AcDbLine
 10
158.8798097715
 20
-37.4541721667
 30
0.0
 11
-21.1201902285
 21
-37.4541721667
 31
0.0
  0
LINE
  5
9C
330
1F
100
AcDbEntity
  8
0
  6
Continuous
 62
     7
370
    25
100
AcDbLine
 10
283.8798097715
 20
-203.9541721667
 30
0.0
 11
283.8798097715
 21
-328.9541721667
 31
0.0
  0
LINE
  5
9D
330
1F
100
AcDbEntity
  8
0
  6
Continuous
 62
     7
370
    25
100
AcDbLine
 10
158.8798097715
 20
549.184604733
 30
0.0
 11
158.8798097715
 21
715.684604733
 31
0.0
  0
LINE
  5
9E
330
1F
100
AcDbEntity
  8
0
  6
Continuous
 62
     7
370
    25
100
AcDbLine
 10
158.8798097715
 20
257.684604733
 30
0.0
 11
158.8798097715
 21
424.1980620501
 31
0.0
  0
LINE
  5
9F
330
1F
100
AcDbEntity
  8
0
  6
Continuous
 62
     7
370
    25
100
AcDbLine
 10
-21.1201902285
 20
715.684604733
 30
0.0
 11
-21.1201902285
 21
257.684604733
 31
0.0
  0
LINE
  5
A0
330
1F
100
AcDbEntity
  8
0
  6
Continuous
 62
     7
370
    25
100
AcDbLine
 10
158.8704737579
 20
424.184604733
 30
0.0
 11
283.8798097715
 21
424.184604733
 31
0.0
  0
LINE
  5
A1
330
1F
100
AcDbEntity
  8
0
  6
Continuous
 62
     7
370
    25
100
AcDbLine
 10
283.8798097715
 20
549.184604733
 30
0.0
 11
158.8798097715
 21
549.184604733
 31
0.0
  0
SPLINE
  5
A2
330
1F
100
AcDbEntity
  8
0
  6
Continuous
 62
     7
370
    25
100
AcDbSpline
210
0.0
220
0.0
230
1.0
 70
     8
 71
     3
 72
    46
 73
    42
 74
     0
 42
0.000000001
 43
0.00000001
 40
0.0
 40
0.0
 40
0.0
 40
0.0
 40
0.0224244762128355
 40
0.0450278920865827
 40
0.0681831421837815
 40
0.0915211789141817
 40
0.113941929889797
 40
0.1365066560992757
 40
0.1594905826162251
 40
0.1826051914958174
 40
0.2070665499195978
 40
0.2316609080952683
 40
0.2566459327415649
 40
0.2817571723525643
 40
0.3103030054448999
 40
0.33904048245979
 40
0.3684332393610175
 40
0.3980910713154244
 40
0.4377178539551718
 40
0.4579931273204076
 40
0.4784226903858991
 40
0.4982010045734969
 40
0.5181397932366604
 40
0.5385778257634515
 40
0.5591811224057198
 40
0.596665642862021
 40
0.6349061481250782
 40
0.6632088173343483
 40
0.6917218474531224
 40
0.7208443315295308
 40
0.7501648669777695
 40
0.7787406273135427
 40
0.807515751547355
 40
0.8369704909262574
 40
0.8666894715464352
 40
0.8889530565293836
 40
0.9113553306079145
 40
0.9342225150520068
 40
0.9572633850445476
 40
0.9795317529452013
 40
1.0
 40
1.0
 40
1.0
 40
1.0
 10
158.879809771465
 20
549.1846047330071
 30
0.0
 10
158.8573486910535
 20
549.1522831827187
 30
0.0
 10
158.8122472984805
 20
549.0873821672106
 30
0.0
 10
158.4461303496339
 20
548.5591220071557
 30
0.0
 10
157.8594914037745
 20
547.7076897058643
 30
0.0
 10
157.047929952379
 20
546.5192941744546
 30
0.0
 10
156.0464044899603
 20
545.0347391254669
 30
0.0
 10
154.8758013078989
 20
543.2729815220143
 30
0.0
 10
153.5377538012524
 20
541.2204324594493
 30
0.0
 10
152.0258488810724
 20
538.845889173816
 30
0.0
 10
150.3620670535687
 20
536.1552095814445
 30
0.0
 10
148.5621631137489
 20
533.1358015160027
 30
0.0
 10
146.684185286884
 20
529.8411563666798
 30
0.0
 10
144.6772678720296
 20
526.1210873599289
 30
0.0
 10
142.5847167578132
 20
521.9526483787355
 30
0.0
 10
140.4558980407308
 20
517.275109997647
 30
0.0
 10
138.4447552291434
 20
512.2454712206845
 30
0.0
 10
136.4438549415931
 20
506.2753731244247
 30
0.0
 10
135.0155405132039
 20
500.5358650819622
 30
0.0
 10
134.1561177953434
 20
495.2118170730935
 30
0.0
 10
133.748871784863
 20
491.1343944300627
 30
0.0
 10
133.5975456732742
 20
487.0437661794122
 30
0.0
 10
133.7032316510835
 20
482.9494352346334
 30
0.0
 10
134.0706137309988
 20
478.829899745935
 30
0.0
 10
134.8625947281469
 20
473.6084467814591
 30
0.0
 10
136.3338299317595
 20
467.4019183103971
 30
0.0
 10
138.4427485915037
 20
461.0916518163875
 30
0.0
 10
140.637907166577
 20
455.6765214958123
 30
0.0
 10
142.756109666742
 20
451.0597506750231
 30
0.0
 10
144.9678777455732
 20
446.6845891543251
 30
0.0
 10
147.1877854414614
 20
442.6184062159434
 30
0.0
 10
149.3480391472384
 20
438.8926766052542
 30
0.0
 10
151.4092853058659
 20
435.5036036669746
 30
0.0
 10
153.3402891786215
 20
432.4496203844826
 30
0.0
 10
154.9313263222207
 20
430.0104804020931
 30
0.0
 10
156.1878503028333
 20
428.1236250061324
 30
0.0
 10
157.1541044831183
 20
426.6937930032846
 30
0.0
 10
157.9345482801145
 20
425.5522667367176
 30
0.0
 10
158.4894986890716
 20
424.7474017957675
 30
0.0
 10
158.8244626895908
 20
424.2642562076049
 30
0.0
 10
158.8555705623152
 20
424.2194983498842
 30
0.0
 10
158.8704693469975
 20
424.1980620501111
 30
0.0
  0
LINE
  5
A3
330
1F
100
AcDbEntity
  8
0
  6
Continuous
 62
     7
370
    25
100
AcDbLine
 10
-21.1201902285
 20
715.684604733
 30
0.0
 11
158.8798097715
 21
715.684604733
 31
0.0
  0
LINE
  5
A4
330
1F
100
AcDbEntity
  8
0
  6
Continuous
 62
     7
370
    25
100
AcDbLine
 10
-21.1201902285
 20
257.684604733
 30
0.0
 11
158.8798097715
 21
257.684604733
 31
0.0
  0
LINE
  5
A5
330
1F
100
AcDbEntity
  8
0
  6
Continuous
 62
     7
370
    25
100
AcDbLine
 10
283.8798097715
 20
549.184604733
 30
0.0
 11
283.8798097715
 21
424.184604733
 31
0.0
  0
LINE
  5
A6
330
1F
100
AcDbEntity
  8
0
  6
Continuous
 62
     7
370
    25
100
AcDbLine
 10
375.9110406266
 20
16.9684113959
 30
0.0
 11
833.9110406266
 21
16.9684113959
 31
0.0
  0
LINE
  5
A7
330
1F
100
AcDbEntity
  8
0
  6
Continuous
 62
     7
370
    25
100
AcDbLine
 10
833.9110406266
 20
196.9684113959
 30
0.0
 11
375.9110406266
 21
196.9684113959
 31
0.0
  0
LINE
  5
A8
330
1F
100
AcDbEntity
  8
0
  6
Continuous
 62
     7
370
    25
100
AcDbLine
 10
833.9110406266
 20
196.9684113959
 30
0.0
 11
833.9110406266
 21
16.9684113959
 31
0.0
  0
LINE
  5
A9
330
1F
100
AcDbEntity
  8
0
  6
Continuous
 62
     7
370
    25
100
AcDbLine
 10
375.9110406266
 20
196.9684113959
 30
0.0
 11
375.9110406266
 21
16.9684113959
 31
0.0
  0
LINE
  5
AA
330
1F
100
AcDbEntity
  8
0
  6
Continuous
 62
     7
370
    25
100
AcDbLine
 10
-65.1876948965
 20
196.9684113959
 30
0.0
 11
-523.1876948965
 21
196.9684113959
 31
0.0
  0
LINE
  5
AB
330
1F
100
AcDbEntity
  8
0
  6
Continuous
 62
     7
370
    25
100
AcDbLine
 10
-523.1876948965
 20
16.9684113959
 30
0.0
 11
-65.1876948965
 21
16.9684113959
 31
0.0
  0
CIRCLE
  5
AC
330
1F
100
AcDbEntity
  8
0
  6
Continuous
 62
     7
370
    25
100
AcDbCircle
 10
-294.1876948965
 20
106.9684113959
 30
0.0
 40
51.09999999999997
  0
CIRCLE
  5
AD
330
1F
100
AcDbEntity
  8
0
  6
Continuous
 62
     7
370
    25
100
AcDbCircle
 10
-294.1876948965
 20
106.9684113959
 30
0.0
 40
62.49999999999997
  0
LINE
  5
AE
330
1F
100
AcDbEntity
  8
0
  6
Continuous
 62
     7
370
    25
100
AcDbLine
 10
-523.1876948965
 20
106.9684113959
 30
0.0
 11
-523.1876948965
 21
196.9684113959
 31
0.0
  0
LINE
  5
AF
330
1F
100
AcDbEntity
  8
0
  6
Continuous
 62
     7
370
    25
100
AcDbLine
 10
-523.1876948965
 20
16.9684113959
 30
0.0
 11
-523.1876948965
 21
106.9684113959
 31
0.0
  0
LINE
  5
B0
330
1F
100
AcDbEntity
  8
0
  6
Continuous
 62
     7
370
    25
100
AcDbLine
 10
-65.1876948965
 20
106.9684113959
 30
0.0
 11
-65.1876948965
 21
196.9684113959
 31
0.0
  0
LINE
  5
B1
330
1F
100
AcDbEntity
  8
0
  6
Continuous
 62
     7
370
    25
100
AcDbLine
 10
-65.1876948965
 20
16.9684113959
 30
0.0
 11
-65.1876948965
 21
106.9684113959
 31
0.0
  0
INSERT
  5
BD
330
1F
100
AcDbEntity
  8
FORMAT
100
AcDbBlockReference
  2
SW_CENTERMARKSYMBOL_1
 10
-294.1876948965
 20
106.9684113959
 30
0.0
  0
LINE
  5
BE
330
1F
100
AcDbEntity
  8
0
  6
Continuous
 62
     7
370
    25
100
AcDbLine
 10
776.3958574229
 20
-266.1684516327
 30
0.0
 11
721.9844558428
 21
-234.7574181032
 31
0.0
  0
LINE
  5
BF
330
1F
100
AcDbEntity
  8
0
  6
Continuous
 62
     7
370
    25
100
AcDbLine
 10
596.9742965967
 20
-162.5905892845
 30
0.0
 11
452.5409516395
 21
-79.2109940253
 31
0.0
  0
LINE
  5
C0
330
1F
100
AcDbEntity
  8
0
  6
Continuous
 62
     7
370
    25
100
AcDbLine
 10
362.5482657022
 20
-235.0997892538
 30
0.0
 11
686.4031714857
 21
-422.0572468612
 31
0.0
  0
LINE
  5
C1
330
1F
100
AcDbEntity
  8
0
  6
Continuous
 62
     7
370
    25
100
AcDbLine
 10
656.1556518225
 20
-272.7595777654
 30
0.0
 11
752.7474799125
 21
-216.9983023211
 31
0.0
  0
LINE
  5
C2
330
1F
100
AcDbEntity
  8
0
  6
Continuous
 62
     7
370
    25
100
AcDbLine
 10
690.2525591228
 20
-108.7421945235
 30
0.0
 11
593.6588829
 21
-164.5045368721
 31
0.0
  0
SPLINE
  5
C3
330
1F
100
AcDbEntity
  8
0
  6
Continuous
 62
     7
370
    25
100
AcDbSpline
210
0.0
220
0.0
230
1.0
 70
     8
 71
     3
 72
    37
 73
    33
 74
     0
 42
0.000000001
 43
0.00000001
 40
0.0
 40
0.0
 40
0.0
 40
0.0
 40
0.0298495569326703
 40
0.0603035937947801
 40
0.0907592733000999
 40
0.1218248843524593
 40
0.1516694825659411
 40
0.1819833619971015
 40
0.2122998344488672
 40
0.2430680373348224
 40
0.2756289187570228
 40
0.3083668381456129
 40
0.3416247795381044
 40
0.3750507275649045
 40
0.413048514536288
 40
0.4513014016100238
 40
0.4904265415778033
 40
0.5299045269282893
 40
0.5697870234588004
 40
0.6096518623694767
 40
0.6368459604632336
 40
0.6631731713988015
 40
0.690045272412111
 40
0.7169189335832381
 40
0.7443442910492051
 40
0.7942404989621357
 40
0.8451430096005046
 40
0.88281711747666
 40
0.9207712399174836
 40
0.9595366156706959
 40
0.9985656205781829
 40
1.0
 40
1.0
 40
1.0
 40
1.0
 10
588.9174980451911
 20
-188.3830019167735
 30
0.0
 10
588.9244704360617
 20
-189.6511775126721
 30
0.0
 10
588.9385564148849
 20
-192.2132103819715
 30
0.0
 10
589.0537798879151
 20
-196.3382061637301
 30
0.0
 10
589.2414076839985
 20
-200.6730372177557
 30
0.0
 10
589.5068282082871
 20
-205.1199080243798
 30
0.0
 10
589.8494136172387
 20
-209.6542917657952
 30
0.0
 10
590.2678052106957
 20
-214.2127146601479
 30
0.0
 10
590.7734141855059
 20
-218.8475191249917
 30
0.0
 10
591.3815928772658
 20
-223.5981104579048
 30
0.0
 10
592.1077177367763
 20
-228.4453493658642
 30
0.0
 10
592.9700378593712
 20
-233.3622005269966
 30
0.0
 10
593.9717725350587
 20
-238.2392427310764
 30
0.0
 10
595.1831547859701
 20
-243.2593732724709
 30
0.0
 10
596.651024443278
 20
-248.3611441526162
 30
0.0
 10
598.4532597248588
 20
-253.5096454688172
 30
0.0
 10
600.5875885747707
 20
-258.4515555990457
 30
0.0
 10
603.1196012788898
 20
-263.1205468139281
 30
0.0
 10
606.0974314729742
 20
-267.3889305447909
 30
0.0
 10
609.1844536174425
 20
-270.7536697462528
 30
0.0
 10
612.1950370854556
 20
-273.2785992442393
 30
0.0
 10
614.9917564886091
 20
-275.1462641480291
 30
0.0
 10
617.9637516072679
 20
-276.6818619777507
 30
0.0
 10
621.1363329154947
 20
-277.9003093098897
 30
0.0
 10
625.3752987912927
 20
-279.0199800382587
 30
0.0
 10
630.8039847045653
 20
-279.6422133818772
 30
0.0
 10
636.7579626810301
 20
-279.344230827953
 30
0.0
 10
642.1373374517141
 20
-278.3817630810445
 30
0.0
 10
646.9063844426665
 20
-277.0380508350323
 30
0.0
 10
651.5383602214519
 20
-275.1740831676349
 30
0.0
 10
654.6444199353125
 20
-273.7177622075752
 30
0.0
 10
656.0996172823542
 20
-272.7853211740695
 30
0.0
 10
656.1512023181557
 20
-272.7522672352384
 30
0.0
  0
SPLINE
  5
C4
330
1F
100
AcDbEntity
  8
0
  6
Continuous
 62
     7
370
    25
100
AcDbSpline
210
0.0
220
0.0
230
1.0
 70
     8
 71
     3
 72
    17
 73
    13
 74
     0
 42
0.000000001
 43
0.00000001
 40
0.0
 40
0.0
 40
0.0
 40
0.0
 40
0.0286223331821688
 40
0.1328612551038136
 40
0.2502449092493638
 40
0.3685784163724719
 40
0.4902450339324642
 40
0.6132372355264392
 40
0.707891384734952
 40
0.804543482500048
 40
0.9011891783380863
 40
0.9999999999999999
 40
0.9999999999999999
 40
0.9999999999999999
 40
0.9999999999999999
 10
593.6776335068498
 20
-164.5377891302934
 30
0.0
 10
593.5748527428798
 20
-164.5841810560278
 30
0.0
 10
593.0977574196346
 20
-164.7995265151324
 30
0.0
 10
592.3608433352979
 20
-165.5812285873617
 30
0.0
 10
591.4663448285523
 20
-166.9682320648647
 30
0.0
 10
590.6975496490992
 20
-168.9667905655904
 30
0.0
 10
590.0621098676768
 20
-171.5304672021319
 30
0.0
 10
589.6030815272143
 20
-174.4576522082019
 30
0.0
 10
589.2830533536473
 20
-177.5974605905223
 30
0.0
 10
589.0750809768115
 20
-180.8194610279741
 30
0.0
 10
588.9423705969828
 20
-184.3956438114677
 30
0.0
 10
588.9258498972395
 20
-187.0441033092429
 30
0.0
 10
588.9174980451911
 20
-188.3830019167735
 30
0.0
  0
LWPOLYLINE
  5
C5
330
1F
100
AcDbEntity
  8
0
  6
Continuous
 62
     7
370
    25
100
AcDbPolyline
 90
      101
 70
   128
 43
0.0
 10
471.1842189776
 20
-120.4170266075
 10
471.0586407438
 20
-115.8751294173
 10
470.6824016421
 20
-111.4961465629
 10
470.0569865165
 20
-107.297359889
 10
469.1848635948
 20
-103.2953400885
 10
468.0694747476
 20
-99.5058813052
 10
466.7152219052
 20
-95.9439388016
 10
465.1274496848
 20
-92.6235699375
 10
463.3124242981
 20
-89.5578786919
 10
461.2773088209
 20
-86.7589639475
 10
459.0301349244
 20
-84.2378717422
 10
456.5797711773
 20
-82.004551675
 10
453.9358880458
 20
-80.06781764
 10
451.1089197288
 20
-78.4353130417
 10
448.1100229786
 20
-77.1134806298
 10
444.9510330708
 20
-76.1075370729
 10
441.6444170952
 20
-75.4214523708
 10
438.2032247545
 20
-75.0579341863
 10
434.6410368627
 20
-75.0184171597
 10
430.9719117481
 20
-75.3030572464
 10
427.210329771
 20
-75.9107311023
 10
423.3711361773
 20
-76.8390405161
 10
419.4694825099
 20
-78.0843218748
 10
415.5207668134
 20
-79.6416606217
 10
411.5405728646
 20
-81.5049106522
 10
407.5446086708
 20
-83.6667185698
 10
403.548644477
 20
-86.1185527063
 10
399.5684505283
 20
-88.8507367923
 10
395.6197348318
 20
-91.8524881456
 10
391.7180811644
 20
-95.111960225
 10
387.8788875706
 20
-98.6162893832
 10
384.1173055936
 20
-102.351645634
 10
380.4481804789
 20
-106.3032872328
 10
376.8859925871
 20
-110.4556188557
 10
373.4448002464
 20
-114.7922531466
 10
370.1381842709
 20
-119.2960753912
 10
366.979194363
 20
-123.9493110609
 10
363.9802976129
 20
-128.7335959601
 10
361.1533292959
 20
-133.6300487022
 10
358.5094461644
 20
-138.6193452252
 10
356.0590824172
 20
-143.6817950551
 10
353.8119085208
 20
-148.7974190152
 10
351.7767930436
 20
-153.9460280748
 10
349.9617676569
 20
-159.1073030262
 10
348.3739954365
 20
-164.2608746751
 10
347.0197425941
 20
-169.3864042287
 10
345.9043537469
 20
-174.4636635634
 10
345.0322308251
 20
-179.4726150562
 10
344.4068156996
 20
-184.3934906639
 10
344.0305765979
 20
-189.2068699387
 10
343.9049983641
 20
-193.8937566716
 10
344.0305765979
 20
-198.4356538618
 10
344.4068156996
 20
-202.8146367163
 10
345.0322308251
 20
-207.0134233901
 10
345.9043537469
 20
-211.0154431906
 10
347.0197425941
 20
-214.8049019739
 10
348.3739954365
 20
-218.3668444775
 10
349.9617676569
 20
-221.6872133416
 10
351.7767930436
 20
-224.7529045872
 10
353.8119085208
 20
-227.5518193316
 10
356.0590824173
 20
-230.0729115369
 10
358.5094461644
 20
-232.3062316041
 10
361.1533292959
 20
-234.2429656391
 10
363.9802976129
 20
-235.8754702374
 10
366.979194363
 20
-237.1973026493
 10
370.1381842709
 20
-238.2032462062
 10
373.4448002464
 20
-238.8893309083
 10
376.8859925871
 20
-239.2528490928
 10
380.4481804789
 20
-239.2923661195
 10
384.1173055936
 20
-239.0077260327
 10
387.8788875706
 20
-238.4000521768
 10
391.7180811644
 20
-237.471742763
 10
395.6197348318
 20
-236.2264614043
 10
399.5684505283
 20
-234.6691226574
 10
403.548644477
 20
-232.8058726269
 10
407.5446086708
 20
-230.6440647093
 10
411.5405728646
 20
-228.1922305728
 10
415.5207668134
 20
-225.4600464868
 10
419.4694825099
 20
-222.4582951335
 10
423.3711361773
 20
-219.1988230541
 10
427.210329771
 20
-215.6944938959
 10
430.9719117481
 20
-211.9591376451
 10
434.6410368627
 20
-208.0074960463
 10
438.2032247545
 20
-203.8551644234
 10
441.6444170952
 20
-199.5185301325
 10
444.9510330708
 20
-195.0147078879
 10
448.1100229786
 20
-190.3614722182
 10
451.1089197288
 20
-185.577187319
 10
453.9358880458
 20
-180.6807345769
 10
456.5797711773
 20
-175.6914380539
 10
459.0301349244
 20
-170.628988224
 10
461.2773088209
 20
-165.5133642639
 10
463.3124242981
 20
-160.3647552043
 10
465.1274496848
 20
-155.2034802529
 10
466.7152219052
 20
-150.049908604
 10
468.0694747476
 20
-144.9243790504
 10
469.1848635948
 20
-139.8471197157
 10
470.0569865165
 20
-134.8381682229
 10
470.6824016421
 20
-129.9172926152
 10
471.0586407438
 20
-125.1039133404
 10
471.1842189776
 20
-120.4170266075
  0
LWPOLYLINE
  5
C6
330
1F
100
AcDbEntity
  8
0
  6
Continuous
 62
     7
370
    25
100
AcDbPolyline
 90
       14
 70
   128
 43
0.0
 10
795.0391247611
 20
-307.3744842149
 10
794.9135465272
 20
-302.8325870247
 10
794.5373074256
 20
-298.4536041703
 10
793.9118923
 20
-294.2548174964
 10
793.0397693782
 20
-290.2527976959
 10
791.924380531
 20
-286.4633389126
 10
790.5701276886
 20
-282.901396409
 10
788.9823554683
 20
-279.5810275449
 10
787.1673300815
 20
-276.5153362993
 10
785.1322146044
 20
-273.7164215549
 10
782.8850407079
 20
-271.1953293496
 10
780.4346769608
 20
-268.9620092824
 10
777.7907938293
 20
-267.0252752474
 10
776.3958574229
 20
-266.1684516327
  0
LWPOLYLINE
  5
C7
330
1F
100
AcDbEntity
  8
0
  6
Continuous
 62
     7
370
    25
100
AcDbPolyline
 90
       39
 70
   128
 43
0.0
 10
686.4031714857
 20
-422.0572468612
 10
687.8352033963
 20
-422.8329278448
 10
690.8341001465
 20
-424.1547602567
 10
693.9930900543
 20
-425.1607038136
 10
697.2997060299
 20
-425.8467885157
 10
700.7408983706
 20
-426.2103067002
 10
704.3030862624
 20
-426.2498237269
 10
707.9722113771
 20
-425.9651836401
 10
711.7337933541
 20
-425.3575097842
 10
715.5729869479
 20
-424.4292003704
 10
719.4746406153
 20
-423.1839190117
 10
723.4233563118
 20
-421.6265802648
 10
727.4035502605
 20
-419.7633302343
 10
731.3995144543
 20
-417.6015223167
 10
735.3954786481
 20
-415.1496881802
 10
739.3756725968
 20
-412.4175040942
 10
743.3243882933
 20
-409.4157527409
 10
747.2260419607
 20
-406.1562806615
 10
751.0652355545
 20
-402.6519515033
 10
754.8268175315
 20
-398.9165952525
 10
758.4959426462
 20
-394.9649536537
 10
762.058130538
 20
-390.8126220308
 10
765.4993228787
 20
-386.4759877399
 10
768.8059388543
 20
-381.9721654953
 10
771.9649287621
 20
-377.3189298256
 10
774.9638255122
 20
-372.5346449264
 10
777.7907938293
 20
-367.6381921843
 10
780.4346769608
 20
-362.6488956613
 10
782.8850407079
 20
-357.5864458314
 10
785.1322146044
 20
-352.4708218713
 10
787.1673300815
 20
-347.3222128117
 10
788.9823554683
 20
-342.1609378603
 10
790.5701276886
 20
-337.0073662114
 10
791.924380531
 20
-331.8818366578
 10
793.0397693782
 20
-326.8045773231
 10
793.9118923
 20
-321.7956258303
 10
794.5373074256
 20
-316.8747502226
 10
794.9135465272
 20
-312.0613709478
 10
795.0391247611
 20
-307.3744842149
  0
LWPOLYLINE
  5
C8
330
1F
100
AcDbEntity
  8
0
  6
Continuous
 62
     7
370
    25
100
AcDbPolyline
 90
       92
 70
   128
 43
0.0
 10
459.5876677662
 20
-127.1115731245
 10
459.4636633277
 20
-123.0369707023
 10
459.0922409501
 20
-119.1249580932
 10
458.4751706299
 20
-115.3941778191
 10
457.6153929884
 20
-111.8624087467
 10
456.5170052574
 20
-108.5464813641
 10
455.1852417549
 20
-105.4621975753
 10
453.6264489402
 20
-102.6242553972
 10
451.8480551712
 20
-100.0461789167
 10
449.8585353038
 20
-97.7402538421
 10
447.6673703064
 20
-95.7174689567
 10
445.285002078
 20
-93.9874637516
 10
442.7227836882
 20
-92.5584824893
 10
439.9929252743
 20
-91.4373349164
 10
437.1084358549
 20
-90.6293638117
 10
434.0830613358
 20
-90.1384195253
 10
430.9312190041
 20
-89.9668416304
 10
427.6679288239
 20
-90.1154477738
 10
424.3087418592
 20
-90.5835297796
 10
420.8696661654
 20
-91.3688570237
 10
417.3670905045
 20
-92.4676870644
 10
413.8177062445
 20
-93.8747834759
 10
410.2384278178
 20
-95.5834408032
 10
406.6463121162
 20
-97.5855165159
 10
403.0584772067
 20
-99.8714698116
 10
399.4920207566
 20
-102.4304070818
 10
395.963938555
 20
-105.2501338249
 10
392.4910435204
 20
-108.3172127591
 10
389.089885579
 20
-111.6170278565
 10
385.7766727974
 20
-115.1338539953
 10
382.5671941433
 20
-118.8509318975
 10
379.4767442441
 20
-122.7505479941
 10
376.5200505009
 20
-126.8141188386
 10
373.7112029059
 20
-131.0222796653
 10
371.063586897
 20
-135.3549766715
 10
368.5898195703
 20
-139.7915625829
 10
366.3016895535
 20
-144.3108950472
 10
364.2101008282
 20
-148.8914373872
 10
362.3250207673
 20
-153.5113612325
 10
360.6554326355
 20
-158.1486505422
 10
359.2092927808
 20
-162.7812065208
 10
357.9934927181
 20
-167.3869529296
 10
357.0138262884
 20
-171.9439412895
 10
356.2749620483
 20
-176.4304554755
 10
355.7804210225
 20
-180.8251152046
 10
355.532559924
 20
-185.1069779218
 10
355.532559924
 20
-189.2556386012
 10
355.7804210225
 20
-193.2513269855
 10
356.2749620483
 20
-197.0750017999
 10
357.0138262884
 20
-200.7084414925
 10
357.9934927181
 20
-204.1343310687
 10
359.2092927808
 20
-207.3363446044
 10
360.6554326355
 20
-210.2992230469
 10
362.3250207673
 20
-213.0088469312
 10
364.2101008282
 20
-215.4523036656
 10
366.3016895535
 20
-217.6179490658
 10
368.5898195703
 20
-219.4954628454
 10
371.063586897
 20
-221.0758977962
 10
373.7112029059
 20
-222.351722426
 10
376.5200505009
 20
-223.3168568493
 10
379.4767442441
 20
-223.9667017611
 10
382.5671941433
 20
-224.2981603544
 10
385.7766727974
 20
-224.3096530782
 10
389.089885579
 20
-224.0011251644
 10
392.4910435204
 20
-223.3740468889
 10
395.963938555
 20
-222.4314065654
 10
399.4920207566
 20
-221.1776963041
 10
403.0584772067
 20
-219.6188906056
 10
406.6463121162
 20
-217.7624178888
 10
410.2384278178
 20
-215.6171250916
 10
413.8177062445
 20
-213.1932355112
 10
417.3670905045
 20
-210.5023000852
 10
420.8696661654
 20
-207.5571423465
 10
424.3087418592
 20
-204.3717973128
 10
427.6679288239
 20
-200.9614446038
 10
430.9312190041
 20
-197.3423361033
 10
434.0830613358
 20
-193.5317185114
 10
437.1084358549
 20
-189.5477511562
 10
439.9929252743
 20
-185.4094194566
 10
442.7227836882
 20
-181.1364444476
 10
445.285002078
 20
-176.749188801
 10
447.6673703064
 20
-172.2685597881
 10
449.8585353038
 20
-167.7159096463
 10
451.8480551712
 20
-163.1129338271
 10
453.6264489402
 20
-158.4815676063
 10
455.1852417549
 20
-153.843881553
 10
456.5170052574
 20
-149.2219763534
 10
457.6153929884
 20
-144.6378774905
 10
458.4751706299
 20
-140.1134302829
 10
459.0922409501
 20
-135.6701957821
 10
459.4636633277
 20
-131.3293480238
 10
459.5876677662
 20
-127.1115731245
  0
LWPOLYLINE
  5
C9
330
1F
100
AcDbEntity
  8
0
  6
Continuous
 62
     7
370
    25
100
AcDbPolyline
 90
       76
 70
   128
 43
0.0
 10
757.6331760363
 20
-183.7294756794
 10
757.5064519706
 20
-180.1648417153
 10
757.1271686519
 20
-176.4788986055
 10
756.49798648
 20
-172.6975005924
 10
755.623318716
 20
-168.8471714662
 10
754.5093005256
 20
-164.9549185193
 10
753.163745946
 20
-161.0480431094
 10
751.5960930759
 20
-157.1539491606
 10
749.8173378739
 20
-153.299950944
 10
747.8399570295
 20
-149.5130814879
 10
745.6778204486
 20
-145.8199029608
 10
743.346093966
 20
-142.2463203564
 10
740.8611329675
 20
-138.8173997891
 10
738.2403676691
 20
-135.557192673
 10
735.5021808564
 20
-132.4885670186
 10
732.6657789423
 20
-129.6330470301
 10
729.7510572485
 20
-127.0106621284
 10
726.7784604534
 20
-124.6398064595
 10
723.7688391877
 20
-122.5371098724
 10
720.7433037821
 20
-120.717321273
 10
717.7230761938
 20
-119.1932051706
 10
714.7293411491
 20
-117.9754521448
 10
711.7830975484
 20
-117.0726038579
 10
708.9050111738
 20
-116.4909931422
 10
706.1152697332
 20
-116.2346995787
 10
703.4334412584
 20
-116.3055208828
 10
700.8783368492
 20
-116.7029602939
 10
698.4678787273
 20
-117.4242300601
 10
696.2189745245
 20
-118.4642709921
 10
694.147398688
 20
-119.8157879502
 10
692.2676818337
 20
-121.4693010139
 10
690.5930088248
 20
-123.4132119771
 10
689.1351262894
 20
-125.6338857012
 10
687.9042602257
 20
-128.1157457554
 10
686.909044275
 20
-130.8413836748
 10
686.156459162
 20
-133.7916810677
 10
685.6517837306
 20
-136.9459437177
 10
685.3985579164
 20
-140.2820467385
 10
685.3985579164
 20
-143.7765897646
 10
685.6517837306
 20
-147.4050610874
 10
686.156459162
 20
-151.1420095876
 10
686.909044275
 20
-154.9612232565
 10
687.9042602257
 20
-158.8359130543
 10
689.1351262894
 20
-162.7389008161
 10
690.5930088248
 20
-166.642809887
 10
692.2676818337
 20
-170.5202571497
 10
694.147398688
 20
-174.3440450978
 10
696.2189745246
 20
-178.0873526061
 10
698.4678787273
 20
-181.723923062
 10
700.8783368492
 20
-185.2282485367
 10
703.4334412584
 20
-188.5757487047
 10
706.1152697332
 20
-191.7429432577
 10
708.9050111738
 20
-194.7076166014
 10
711.7830975484
 20
-197.4489736824
 10
714.7293411491
 20
-199.9477858505
 10
717.7230761938
 20
-202.1865257338
 10
720.7433037821
 20
-204.1494901804
 10
723.7688391877
 20
-205.8229104051
 10
726.7784604534
 20
-207.1950485675
 10
729.7510572485
 20
-208.2562801042
 10
732.6657789423
 20
-208.9991612385
 10
735.5021808564
 20
-209.4184811929
 10
738.2403676691
 20
-209.5112987393
 10
740.8611329675
 20
-209.2769628293
 10
743.346093966
 20
-208.7171171609
 10
745.6778204486
 20
-207.8356886493
 10
747.8399570295
 20
-206.638859882
 10
749.8173378739
 20
-205.1350257531
 10
751.5960930759
 20
-203.3347345784
 10
753.163745946
 20
-201.250614107
 10
754.5093005256
 20
-198.8972829466
 10
755.623318716
 20
-196.2912480244
 10
756.49798648
 20
-193.4507888029
 10
757.1271686519
 20
-190.3958290628
 10
757.5064519706
 20
-187.1477971516
 10
757.6331760363
 20
-183.7294756794
  0
LWPOLYLINE
  5
CA
330
1F
100
AcDbEntity
  8
0
  6
Continuous
 62
     7
370
    25
100
AcDbPolyline
 90
       84
 70
   128
 43
0.0
 10
765.6941933418
 20
-188.3830019168
 10
765.5676232291
 20
-184.4503121981
 10
765.188637873
 20
-180.3940138283
 10
764.5594080674
 20
-176.2373409173
 10
763.6835379837
 20
-172.004102511
 10
762.5660445262
 20
-167.7185462156
 10
761.2133285964
 20
-163.4052193095
 10
759.6331384287
 20
-159.0888281386
 10
757.8345252091
 20
-154.7940966006
 10
755.8277912313
 20
-150.5456245289
 10
753.6244308859
 20
-146.3677467868
 10
751.2370648213
 20
-142.2843938796
 10
748.6793676542
 20
-138.3189548829
 10
745.9659896423
 20
-134.4941434723
 10
743.1124727691
 20
-130.8318678212
 10
740.135161721
 20
-127.3531051127
 10
737.0511102658
 20
-124.0777813847
 10
733.8779835712
 20
-121.0246573949
 10
730.6339570194
 20
-118.211221161
 10
727.3376121008
 20
-115.653587791
 10
724.0078299804
 20
-113.3664071771
 10
720.6636833489
 20
-111.3627800828
 10
717.3243271752
 20
-109.6541831028
 10
714.0088889891
 20
-108.2504029256
 10
710.7363593203
 20
-107.1594802772
 10
707.5254829223
 20
-106.3876638635
 10
704.3946514044
 20
-105.9393745792
 10
701.361797886
 20
-105.8171801846
 10
698.4442942775
 20
-106.0217805982
 10
695.6588517752
 20
-106.5520038873
 10
693.0214251415
 20
-107.404812981
 10
690.5471213175
 20
-108.575323066
 10
688.2501128912
 20
-110.0568295666
 10
686.1435569191
 20
-111.8408465475
 10
684.2395195628
 20
-113.9171553213
 10
682.548906976
 20
-116.2738629791
 10
681.0814028345
 20
-118.8974705131
 10
679.845412869
 20
-121.7729501367
 10
678.8480167182
 20
-124.8838313632
 10
678.0949273769
 20
-128.2122953466
 10
677.5904584727
 20
-131.7392769466
 10
677.3374995577
 20
-135.444573932
 10
677.3374995577
 20
-139.3069626973
 10
677.5904584727
 20
-143.3043198293
 10
678.0949273769
 20
-147.4137488284
 10
678.8480167182
 20
-151.6117112575
 10
679.845412869
 20
-155.8741615678
 10
681.0814028345
 20
-160.1766848302
 10
682.548906976
 20
-164.4946365808
 10
684.2395195628
 20
-168.8032839832
 10
686.1435569191
 20
-173.0779474951
 10
688.2501128912
 20
-177.2941422312
 10
690.5471213175
 20
-181.4277182098
 10
693.0214251415
 20
-185.454998682
 10
695.6588517752
 20
-189.3529157499
 10
698.4442942775
 20
-193.0991424977
 10
701.361797886
 20
-196.6722208776
 10
704.3946514044
 20
-200.0516846205
 10
707.5254829223
 20
-203.2181764639
 10
710.7363593203
 20
-206.1535590294
 10
714.0088889891
 20
-208.8410187115
 10
717.3243271752
 20
-211.2651619844
 10
720.6636833489
 20
-213.412103575
 10
724.0078299804
 20
-215.2695459963
 10
727.3376121008
 20
-216.8268499864
 10
730.6339570194
 20
-218.075095449
 10
733.8779835712
 20
-219.0071325472
 10
737.0511102658
 20
-219.6176226568
 10
740.135161721
 20
-219.9030689458
 10
743.1124727691
 20
-219.8618364036
 10
745.9659896423
 20
-219.4941612067
 10
748.6793676542
 20
-218.8021493651
 10
751.2370648213
 20
-217.7897646601
 10
753.6244308859
 20
-216.4628059395
 10
755.8277912313
 20
-214.8288739028
 10
757.8345252091
 20
-212.8973275647
 10
759.6331384287
 20
-210.6792306477
 10
761.2133285964
 20
-208.18728821
 10
762.5660445262
 20
-205.4357738723
 10
763.6835379837
 20
-202.4404480596
 10
764.5594080674
 20
-199.2184677267
 10
765.188637873
 20
-195.7882880854
 10
765.5676232291
 20
-192.1695568939
 10
765.6941933418
 20
-188.3830019168
  0
ENDSEC
  0
SECTION
  2
OBJECTS
  0
DICTIONARY
  5
C
330
0
100
AcDbDictionary
281
     1
  3
ACAD_GROUP
350
D
  3
ACAD_LAYOUT
350
1A
  3
ACAD_MLINESTYLE
350
17
  3
ACAD_PLOTSETTINGS
350
19
  3
ACAD_PLOTSTYLENAME
350
E
  3
ACAD_SCALELIST
350
47
  0
DICTIONARY
  5
D
102
{ACAD_REACTORS
330
C
102
}
330
C
100
AcDbDictionary
281
     1
  0
DICTIONARY
  5
1A
102
{ACAD_REACTORS
330
C
102
}
330
C
100
AcDbDictionary
281
     1
  3
Layout1
350
1E
  3
Layout2
350
26
  3
Model
350
22
  0
DICTIONARY
  5
17
102
{ACAD_REACTORS
330
C
102
}
330
C
100
AcDbDictionary
281
     1
  3
Standard
350
18
  0
DICTIONARY
  5
19
102
{ACAD_REACTORS
330
C
102
}
330
C
100
AcDbDictionary
281
     1
  0
ACDBDICTIONARYWDFLT
  5
E
102
{ACAD_REACTORS
330
C
102
}
330
C
100
AcDbDictionary
281
     1
  3
Normal
350
F
100
AcDbDictionaryWithDefault
340
F
  0
DICTIONARY
  5
47
102
{ACAD_REACTORS
330
C
102
}
330
C
100
AcDbDictionary
281
     1
  3
A0
350
48
  3
A1
350
49
  3
A2
350
4A
  3
A3
350
4B
  3
A4
350
4C
  3
A5
350
4D
  3
A6
350
4E
  3
A7
350
4F
  3
A8
350
50
  3
A9
350
51
  3
B0
350
52
  3
B1
350
53
  3
B2
350
54
  3
B3
350
55
  3
B4
350
56
  3
B5
350
57
  3
B6
350
58
  3
B7
350
59
  3
B8
350
5A
  3
B9
350
5B
  3
C0
350
5C
  3
C1
350
5D
  3
C2
350
5E
  3
C3
350
5F
  3
C4
350
60
  3
C5
350
61
  3
C6
350
62
  3
C7
350
63
  3
C8
350
64
  3
C9
350
65
  3
D0
350
66
  3
D1
350
67
  3
D2
350
68
  0
LAYOUT
  5
1E
102
{ACAD_REACTORS
330
1A
102
}
330
1A
100
AcDbPlotSettings
  1

  2
none_device
  4

  6

 40
0.0
 41
0.0
 42
0.0
 43
0.0
 44
0.0
 45
0.0
 46
0.0
 47
0.0
 48
0.0
 49
0.0
140
0.0
141
0.0
142
1.0
143
1.0
 70
   688
 72
     1
 73
     0
 74
     5
  7

 75
    16
147
1.0
148
0.0
149
0.0
100
AcDbLayout
  1
Layout1
 70
     1
 71
     1
 10
0.0
 20
0.0
 11
420.0
 21
297.0
 12
0.0
 22
0.0
 32
0.0
 14
1.0000000000E+20
 24
1.0000000000E+20
 34
1.0000000000E+20
 15
-1.0000000000E+20
 25
-1.0000000000E+20
 35
-1.0000000000E+20
146
0.0
 13
0.0
 23
0.0
 33
0.0
 16
1.0
 26
0.0
 36
0.0
 17
0.0
 27
1.0
 37
0.0
 76
     0
330
1B
  0
LAYOUT
  5
26
102
{ACAD_REACTORS
330
1A
102
}
330
1A
100
AcDbPlotSettings
  1

  2
none_device
  4

  6

 40
0.0
 41
0.0
 42
0.0
 43
0.0
 44
0.0
 45
0.0
 46
0.0
 47
0.0
 48
0.0
 49
0.0
140
0.0
141
0.0
142
1.0
143
1.0
 70
   688
 72
     1
 73
     0
 74
     5
  7

 75
    16
147
1.0
148
0.0
149
0.0
100
AcDbLayout
  1
Layout2
 70
     1
 71
     2
 10
0.0
 20
0.0
 11
0.0
 21
0.0
 12
0.0
 22
0.0
 32
0.0
 14
0.0
 24
0.0
 34
0.0
 15
0.0
 25
0.0
 35
0.0
146
0.0
 13
0.0
 23
0.0
 33
0.0
 16
1.0
 26
0.0
 36
0.0
 17
0.0
 27
1.0
 37
0.0
 76
     0
330
23
  0
LAYOUT
  5
22
102
{ACAD_REACTORS
330
1A
102
}
330
1A
100
AcDbPlotSettings
  1

  2
none_device
  4
Letter_(8.50_x_11.00_Inches)
  6

 40
6.35
 41
6.35
 42
6.35000508
 43
6.35000508
 44
215.9
 45
279.4
 46
0.0
 47
0.0
 48
0.0
 49
0.0
140
0.0
141
0.0
142
1.0
143
1.0
 70
  1712
 72
     1
 73
     0
 74
     0
  7

 75
     0
147
1.0
148
0.0
149
0.0
100
AcDbLayout
  1
Model
 70
     1
 71
     0
 10
0.0
 20
0.0
 11
279.4
 21
215.9
 12
0.0
 22
0.0
 32
0.0
 14
0.0
 24
0.0
 34
0.0
 15
279.4
 25
215.9
 35
0.0
146
0.0
 13
0.0
 23
0.0
 33
0.0
 16
1.0
 26
0.0
 36
0.0
 17
0.0
 27
1.0
 37
0.0
 76
     0
330
1F
331
29
  0
MLINESTYLE
  5
18
102
{ACAD_REACTORS
330
17
102
}
330
17
100
AcDbMlineStyle
  2
Standard
 70
     0
  3

 62
   256
 51
90.0
 52
90.0
 71
     2
 49
0.5
 62
   256
  6
BYLAYER
 49
-0.5
 62
   256
  6
BYLAYER
  0
ACDBPLACEHOLDER
  5
F
102
{ACAD_REACTORS
330
E
102
}
330
E
  0
SCALE
  5
48
102
{ACAD_REACTORS
330
47
102
}
330
47
100
AcDbScale
 70
     0
300
1:1
140
1.0
141
1.0
290
     1
  0
SCALE
  5
49
102
{ACAD_REACTORS
330
47
102
}
330
47
100
AcDbScale
 70
     0
300
1:2
140
1.0
141
2.0
290
     0
  0
SCALE
  5
4A
102
{ACAD_REACTORS
330
47
102
}
330
47
100
AcDbScale
 70
     0
300
1:4
140
1.0
141
4.0
290
     0
  0
SCALE
  5
4B
102
{ACAD_REACTORS
330
47
102
}
330
47
100
AcDbScale
 70
     0
300
1:5
140
1.0
141
5.0
290
     0
  0
SCALE
  5
4C
102
{ACAD_REACTORS
330
47
102
}
330
47
100
AcDbScale
 70
     0
300
1:8
140
1.0
141
8.0
290
     0
  0
SCALE
  5
4D
102
{ACAD_REACTORS
330
47
102
}
330
47
100
AcDbScale
 70
     0
300
1:10
140
1.0
141
10.0
290
     0
  0
SCALE
  5
4E
102
{ACAD_REACTORS
330
47
102
}
330
47
100
AcDbScale
 70
     0
300
1:16
140
1.0
141
16.0
290
     0
  0
SCALE
  5
4F
102
{ACAD_REACTORS
330
47
102
}
330
47
100
AcDbScale
 70
     0
300
1:20
140
1.0
141
20.0
290
     0
  0
SCALE
  5
50
102
{ACAD_REACTORS
330
47
102
}
330
47
100
AcDbScale
 70
     0
300
1:30
140
1.0
141
30.0
290
     0
  0
SCALE
  5
51
102
{ACAD_REACTORS
330
47
102
}
330
47
100
AcDbScale
 70
     0
300
1:40
140
1.0
141
40.0
290
     0
  0
SCALE
  5
52
102
{ACAD_REACTORS
330
47
102
}
330
47
100
AcDbScale
 70
     0
300
1:50
140
1.0
141
50.0
290
     0
  0
SCALE
  5
53
102
{ACAD_REACTORS
330
47
102
}
330
47
100
AcDbScale
 70
     0
300
1:100
140
1.0
141
100.0
290
     0
  0
SCALE
  5
54
102
{ACAD_REACTORS
330
47
102
}
330
47
100
AcDbScale
 70
     0
300
2:1
140
2.0
141
1.0
290
     0
  0
SCALE
  5
55
102
{ACAD_REACTORS
330
47
102
}
330
47
100
AcDbScale
 70
     0
300
4:1
140
4.0
141
1.0
290
     0
  0
SCALE
  5
56
102
{ACAD_REACTORS
330
47
102
}
330
47
100
AcDbScale
 70
     0
300
8:1
140
8.0
141
1.0
290
     0
  0
SCALE
  5
57
102
{ACAD_REACTORS
330
47
102
}
330
47
100
AcDbScale
 70
     0
300
10:1
140
10.0
141
1.0
290
     0
  0
SCALE
  5
58
102
{ACAD_REACTORS
330
47
102
}
330
47
100
AcDbScale
 70
     0
300
100:1
140
100.0
141
1.0
290
     0
  0
SCALE
  5
59
102
{ACAD_REACTORS
330
47
102
}
330
47
100
AcDbScale
 70
     0
300
1/128" = 1'-0"
140
0.0078125
141
12.0
290
     0
  0
SCALE
  5
5A
102
{ACAD_REACTORS
330
47
102
}
330
47
100
AcDbScale
 70
     0
300
1/64" = 1'-0"
140
0.015625
141
12.0
290
     0
  0
SCALE
  5
5B
102
{ACAD_REACTORS
330
47
102
}
330
47
100
AcDbScale
 70
     0
300
1/32" = 1'-0"
140
0.03125
141
12.0
290
     0
  0
SCALE
  5
5C
102
{ACAD_REACTORS
330
47
102
}
330
47
100
AcDbScale
 70
     0
300
1/16" = 1'-0"
140
0.0625
141
12.0
290
     0
  0
SCALE
  5
5D
102
{ACAD_REACTORS
330
47
102
}
330
47
100
AcDbScale
 70
     0
300
3/32" = 1'-0"
140
0.09375
141
12.0
290
     0
  0
SCALE
  5
5E
102
{ACAD_REACTORS
330
47
102
}
330
47
100
AcDbScale
 70
     0
300
1/8" = 1'-0"
140
0.125
141
12.0
290
     0
  0
SCALE
  5
5F
102
{ACAD_REACTORS
330
47
102
}
330
47
100
AcDbScale
 70
     0
300
3/16" = 1'-0"
140
0.1875
141
12.0
290
     0
  0
SCALE
  5
60
102
{ACAD_REACTORS
330
47
102
}
330
47
100
AcDbScale
 70
     0
300
1/4" = 1'-0"
140
0.25
141
12.0
290
     0
  0
SCALE
  5
61
102
{ACAD_REACTORS
330
47
102
}
330
47
100
AcDbScale
 70
     0
300
3/8" = 1'-0"
140
0.375
141
12.0
290
     0
  0
SCALE
  5
62
102
{ACAD_REACTORS
330
47
102
}
330
47
100
AcDbScale
 70
     0
300
1/2" = 1'-0"
140
0.5
141
12.0
290
     0
  0
SCALE
  5
63
102
{ACAD_REACTORS
330
47
102
}
330
47
100
AcDbScale
 70
     0
300
3/4" = 1'-0"
140
0.75
141
12.0
290
     0
  0
SCALE
  5
64
102
{ACAD_REACTORS
330
47
102
}
330
47
100
AcDbScale
 70
     0
300
1" = 1'-0"
140
1.0
141
12.0
290
     0
  0
SCALE
  5
65
102
{ACAD_REACTORS
330
47
102
}
330
47
100
AcDbScale
 70
     0
300
1-1/2" = 1'-0"
140
1.5
141
12.0
290
     0
  0
SCALE
  5
66
102
{ACAD_REACTORS
330
47
102
}
330
47
100
AcDbScale
 70
     0
300
3" = 1'-0"
140
3.0
141
12.0
290
     0
  0
SCALE
  5
67
102
{ACAD_REACTORS
330
47
102
}
330
47
100
AcDbScale
 70
     0
300
6" = 1'-0"
140
6.0
141
12.0
290
     0
  0
SCALE
  5
68
102
{ACAD_REACTORS
330
47
102
}
330
47
100
AcDbScale
 70
     0
300
1'-0" = 1'-0"
140
12.0
141
12.0
290
     0
  0
ENDSEC
  0
EOF
